ISO-10303-21;
HEADER;
FILE_DESCRIPTION (( 'STEP AP203' ),
    '1' );
FILE_NAME ('MgF2-MIRQWP-12.7-4500-M.STEP',
    '2020-12-23T01:29:25',
    ( '' ),
    ( '' ),
    'SwSTEP 2.0',
    'SolidWorks 2020',
    '' );
FILE_SCHEMA (( 'CONFIG_CONTROL_DESIGN' ));
ENDSEC;

DATA;
#1 = CIRCLE ( 'NONE', #113, 6.349999999999999645 ) ;
#2 = VERTEX_POINT ( 'NONE', #204 ) ;
#3 = CYLINDRICAL_SURFACE ( 'NONE', #146, 6.349999999999999645 ) ;
#4 = LOCAL_TIME ( 9, 29, 25.00000000000000000, #210 ) ;
#5 = VERTEX_POINT ( 'NONE', #313 ) ;
#6 = FACE_OUTER_BOUND ( 'NONE', #268, .T. ) ;
#7 = AXIS2_PLACEMENT_3D ( 'NONE', #176, #124, #100 ) ;
#8 = AXIS2_PLACEMENT_3D ( 'NONE', #170, #280, #145 ) ;
#9 = CARTESIAN_POINT ( 'NONE',  ( 3.000000000000000000, 1.555301434917138433E-15, -12.69999999999999929 ) ) ;
#10 = EDGE_CURVE ( 'NONE', #226, #29, #1, .T. ) ;
#11 = CARTESIAN_POINT ( 'NONE',  ( -1.614212418857619014, 0.000000000000000000, 0.000000000000000000 ) ) ;
#12 = DIRECTION ( 'NONE',  ( 0.000000000000000000, 0.000000000000000000, 1.000000000000000000 ) ) ;
#13 = PERSON_AND_ORGANIZATION ( #190, #217 ) ;
#14 = PRODUCT_DEFINITION ( 'UNKNOWN', '', #264, #64 ) ;
#15 = DIRECTION ( 'NONE',  ( 1.000000000000000000, 0.000000000000000000, 0.000000000000000000 ) ) ;
#16 = MECHANICAL_CONTEXT ( 'NONE', #91, 'mechanical' ) ;
#17 =( GEOMETRIC_REPRESENTATION_CONTEXT ( 3 ) GLOBAL_UNCERTAINTY_ASSIGNED_CONTEXT ( ( #129 ) ) GLOBAL_UNIT_ASSIGNED_CONTEXT ( ( #266, #106, #235 ) ) REPRESENTATION_CONTEXT ( 'NONE', 'WORKASPACE' ) );
#18 = PERSON_AND_ORGANIZATION ( #190, #217 ) ;
#19 = APPROVAL_DATE_TIME ( #40, #90 ) ;
#20 = DATE_AND_TIME ( #163, #4 ) ;
#21 = MANIFOLD_SOLID_BREP ( 'Ðý×', #55 ) ;
#22 = EDGE_CURVE ( 'NONE', #198, #296, #304, .T. ) ;
#23 = AXIS2_PLACEMENT_3D ( 'NONE', #281, #74, #222 ) ;
#24 = DIRECTION ( 'NONE',  ( 0.000000000000000000, 0.000000000000000000, 1.000000000000000000 ) ) ;
#25 = CARTESIAN_POINT ( 'NONE',  ( -1.614212418857619014, 0.000000000000000000, 0.000000000000000000 ) ) ;
#26 = ORIENTED_EDGE ( 'NONE', *, *, #115, .F. ) ;
#27 = CARTESIAN_POINT ( 'NONE',  ( 3.000000000000000888, 7.776507174585692163E-16, -6.349999999999999645 ) ) ;
#28 = DIRECTION ( 'NONE',  ( -0.000000000000000000, 0.000000000000000000, 1.000000000000000000 ) ) ;
#29 = VERTEX_POINT ( 'NONE', #79 ) ;
#30 = CC_DESIGN_APPROVAL ( #41, ( #242 ) ) ;
#31 = ORIENTED_EDGE ( 'NONE', *, *, #22, .F. ) ;
#32 = DIRECTION ( 'NONE',  ( -1.000000000000000000, -0.000000000000000000, -0.000000000000000000 ) ) ;
#33 = VECTOR ( 'NONE', #34, 1000.000000000000000 ) ;
#34 = DIRECTION ( 'NONE',  ( -1.000000000000000000, -0.000000000000000000, -0.000000000000000000 ) ) ;
#35 = APPROVAL_ROLE ( '' ) ;
#36 = VERTEX_POINT ( 'NONE', #239 ) ;
#37 = DIRECTION ( 'NONE',  ( 0.000000000000000000, 0.000000000000000000, -1.000000000000000000 ) ) ;
#38 = APPROVAL_DATE_TIME ( #86, #41 ) ;
#39 = APPROVAL_ROLE ( '' ) ;
#40 = DATE_AND_TIME ( #215, #48 ) ;
#41 = APPROVAL ( #301, 'UNSPECIFIED' ) ;
#42 = ADVANCED_FACE ( 'NONE', ( #102 ), #289, .F. ) ;
#43 = VERTEX_POINT ( 'NONE', #156 ) ;
#44 = DIRECTION ( 'NONE',  ( -1.000000000000000000, 0.000000000000000000, -0.000000000000000000 ) ) ;
#45 = VECTOR ( 'NONE', #334, 1000.000000000000000 ) ;
#46 = ORIENTED_EDGE ( 'NONE', *, *, #321, .F. ) ;
#47 = CARTESIAN_POINT ( 'NONE',  ( 1.500000000000000444, 6.349999999999999645, 0.000000000000000000 ) ) ;
#48 = LOCAL_TIME ( 9, 29, 25.00000000000000000, #246 ) ;
#49 = EDGE_CURVE ( 'NONE', #43, #5, #224, .T. ) ;
#50 = EDGE_LOOP ( 'NONE', ( #260, #188 ) ) ;
#51 = DIRECTION ( 'NONE',  ( -1.000000000000000000, -0.000000000000000000, -0.000000000000000000 ) ) ;
#52 = ORIENTED_EDGE ( 'NONE', *, *, #230, .T. ) ;
#53 = DIRECTION ( 'NONE',  ( 0.000000000000000000, 0.000000000000000000, -1.000000000000000000 ) ) ;
#54 = EDGE_CURVE ( 'NONE', #311, #2, #84, .T. ) ;
#55 = CLOSED_SHELL ( 'NONE', ( #187, #252, #247, #167, #42, #223, #164, #277, #139, #320 ) ) ;
#56 = DIRECTION ( 'NONE',  ( 0.000000000000000000, 0.000000000000000000, 1.000000000000000000 ) ) ;
#57 = DIRECTION ( 'NONE',  ( -1.000000000000000000, -0.000000000000000000, -0.000000000000000000 ) ) ;
#58 = CC_DESIGN_PERSON_AND_ORGANIZATION_ASSIGNMENT ( #133, #191, ( #155 ) ) ;
#59 = CARTESIAN_POINT ( 'NONE',  ( -1.614212418857619014, 0.000000000000000000, 6.349999999999999645 ) ) ;
#60 = DIRECTION ( 'NONE',  ( 0.000000000000000000, 0.000000000000000000, 1.000000000000000000 ) ) ;
#61 = VERTEX_POINT ( 'NONE', #9 ) ;
#62 = CYLINDRICAL_SURFACE ( 'NONE', #236, 12.69999999999999929 ) ;
#63 = CARTESIAN_POINT ( 'NONE',  ( -2.999999999999999556, 0.000000000000000000, 0.000000000000000000 ) ) ;
#64 = DESIGN_CONTEXT ( 'detailed design', #109, 'design' ) ;
#65 = VECTOR ( 'NONE', #160, 1000.000000000000000 ) ;
#66 = AXIS2_PLACEMENT_3D ( 'NONE', #47, #44, #28 ) ;
#67 = PERSON_AND_ORGANIZATION_ROLE ( 'creator' ) ;
#68 = EDGE_CURVE ( 'NONE', #99, #149, #267, .T. ) ;
#69 = CIRCLE ( 'NONE', #257, 12.69999999999999929 ) ;
#70 = DIRECTION ( 'NONE',  ( 0.000000000000000000, 0.000000000000000000, 1.000000000000000000 ) ) ;
#71 = CARTESIAN_POINT ( 'NONE',  ( -3.000000000000000000, 0.000000000000000000, 0.000000000000000000 ) ) ;
#72 = EDGE_LOOP ( 'NONE', ( #185, #135, #241, #262 ) ) ;
#73 = AXIS2_PLACEMENT_3D ( 'NONE', #231, #305, #70 ) ;
#74 = DIRECTION ( 'NONE',  ( 1.000000000000000000, 0.000000000000000000, 0.000000000000000000 ) ) ;
#75 = ORIENTED_EDGE ( 'NONE', *, *, #298, .F. ) ;
#76 = FACE_OUTER_BOUND ( 'NONE', #286, .T. ) ;
#77 = ORIENTED_EDGE ( 'NONE', *, *, #54, .F. ) ;
#78 = DIRECTION ( 'NONE',  ( -1.000000000000000000, -0.000000000000000000, -0.000000000000000000 ) ) ;
#79 = CARTESIAN_POINT ( 'NONE',  ( -1.500000000000000444, 7.776507174585692163E-16, -6.349999999999999645 ) ) ;
#80 = APPLICATION_PROTOCOL_DEFINITION ( 'international standard', 'config_control_design', 1994, #109 ) ;
#81 = AXIS2_PLACEMENT_3D ( 'NONE', #209, #132, #291 ) ;
#82 = EDGE_LOOP ( 'NONE', ( #232, #153, #331, #77 ) ) ;
#83 = COORDINATED_UNIVERSAL_TIME_OFFSET ( 8, 0, .AHEAD. ) ;
#84 = LINE ( 'NONE', #205, #104 ) ;
#85 = ORIENTED_EDGE ( 'NONE', *, *, #173, .T. ) ;
#86 = DATE_AND_TIME ( #220, #192 ) ;
#87 = DATE_TIME_ROLE ( 'classification_date' ) ;
#88 = CC_DESIGN_APPROVAL ( #299, ( #14 ) ) ;
#89 = CIRCLE ( 'NONE', #134, 6.349999999999999645 ) ;
#90 = APPROVAL ( #140, 'UNSPECIFIED' ) ;
#91 = APPLICATION_CONTEXT ( 'configuration controlled 3d designs of mechanical parts and assemblies' ) ;
#92 = AXIS2_PLACEMENT_3D ( 'NONE', #207, #60, #189 ) ;
#93 = ADVANCED_BREP_SHAPE_REPRESENTATION ( 'MgF2-MIRQWP-12.7-4500-M', ( #21, #92 ), #17 ) ;
#94 = LINE ( 'NONE', #154, #45 ) ;
#95 = AXIS2_PLACEMENT_3D ( 'NONE', #318, #32, #12 ) ;
#96 = CARTESIAN_POINT ( 'NONE',  ( -1.614212418857619014, 0.000000000000000000, 0.000000000000000000 ) ) ;
#97 = CARTESIAN_POINT ( 'NONE',  ( 3.000000000000000888, 0.000000000000000000, 0.000000000000000000 ) ) ;
#98 = PLANE ( 'NONE',  #66 ) ;
#99 = VERTEX_POINT ( 'NONE', #105 ) ;
#100 = DIRECTION ( 'NONE',  ( 0.000000000000000000, 0.000000000000000000, 1.000000000000000000 ) ) ;
#101 = PLANE ( 'NONE',  #303 ) ;
#102 = FACE_OUTER_BOUND ( 'NONE', #253, .T. ) ;
#103 = CARTESIAN_POINT ( 'NONE',  ( -1.614212418857619014, 0.000000000000000000, 6.349999999999999645 ) ) ;
#104 = VECTOR ( 'NONE', #57, 1000.000000000000000 ) ;
#105 = CARTESIAN_POINT ( 'NONE',  ( 3.000000000000000888, 0.000000000000000000, 6.349999999999999645 ) ) ;
#106 =( NAMED_UNIT ( * ) PLANE_ANGLE_UNIT ( ) SI_UNIT ( $, .RADIAN. ) );
#107 = DIRECTION ( 'NONE',  ( -1.000000000000000000, -0.000000000000000000, -0.000000000000000000 ) ) ;
#108 = PERSON_AND_ORGANIZATION_ROLE ( 'creator' ) ;
#109 = APPLICATION_CONTEXT ( 'configuration controlled 3d designs of mechanical parts and assemblies' ) ;
#110 = EDGE_CURVE ( 'NONE', #99, #296, #137, .T. ) ;
#111 = EDGE_LOOP ( 'NONE', ( #169, #85, #175, #317 ) ) ;
#112 = DIRECTION ( 'NONE',  ( 0.000000000000000000, 0.000000000000000000, 1.000000000000000000 ) ) ;
#113 = AXIS2_PLACEMENT_3D ( 'NONE', #265, #15, #181 ) ;
#114 = PERSON_AND_ORGANIZATION_ROLE ( 'classification_officer' ) ;
#115 = EDGE_CURVE ( 'NONE', #61, #36, #275, .T. ) ;
#116 = PERSON_AND_ORGANIZATION ( #190, #217 ) ;
#117 = COORDINATED_UNIVERSAL_TIME_OFFSET ( 8, 0, .AHEAD. ) ;
#118 = CC_DESIGN_PERSON_AND_ORGANIZATION_ASSIGNMENT ( #18, #114, ( #242 ) ) ;
#119 = FACE_OUTER_BOUND ( 'NONE', #309, .T. ) ;
#120 = AXIS2_PLACEMENT_3D ( 'NONE', #310, #200, #178 ) ;
#121 = ORIENTED_EDGE ( 'NONE', *, *, #230, .F. ) ;
#122 = PLANE ( 'NONE',  #327 ) ;
#123 = EDGE_CURVE ( 'NONE', #36, #2, #282, .T. ) ;
#124 = DIRECTION ( 'NONE',  ( -1.000000000000000000, -0.000000000000000000, -0.000000000000000000 ) ) ;
#125 = CC_DESIGN_PERSON_AND_ORGANIZATION_ASSIGNMENT ( #116, #166, ( #264 ) ) ;
#126 = ORIENTED_EDGE ( 'NONE', *, *, #138, .T. ) ;
#127 = LINE ( 'NONE', #203, #221 ) ;
#128 = FACE_OUTER_BOUND ( 'NONE', #72, .T. ) ;
#129 = UNCERTAINTY_MEASURE_WITH_UNIT (LENGTH_MEASURE( 1.000000000000000082E-05 ), #266, 'distance_accuracy_value', 'NONE');
#130 = ORIENTED_EDGE ( 'NONE', *, *, #237, .F. ) ;
#131 = DIRECTION ( 'NONE',  ( 0.000000000000000000, 0.000000000000000000, 1.000000000000000000 ) ) ;
#132 = DIRECTION ( 'NONE',  ( -1.000000000000000000, -0.000000000000000000, -0.000000000000000000 ) ) ;
#133 = PERSON_AND_ORGANIZATION ( #190, #217 ) ;
#134 = AXIS2_PLACEMENT_3D ( 'NONE', #197, #258, #53 ) ;
#135 = ORIENTED_EDGE ( 'NONE', *, *, #184, .T. ) ;
#136 = APPROVAL_DATE_TIME ( #316, #299 ) ;
#137 = LINE ( 'NONE', #59, #33 ) ;
#138 = EDGE_CURVE ( 'NONE', #149, #99, #315, .T. ) ;
#139 = ADVANCED_FACE ( 'NONE', ( #76, #227 ), #122, .F. ) ;
#140 = APPROVAL_STATUS ( 'not_yet_approved' ) ;
#141 = LOCAL_TIME ( 9, 29, 25.00000000000000000, #117 ) ;
#142 = APPROVAL_ROLE ( '' ) ;
#143 = AXIS2_PLACEMENT_3D ( 'NONE', #63, #183, #56 ) ;
#144 = AXIS2_PLACEMENT_3D ( 'NONE', #323, #233, #186 ) ;
#145 = DIRECTION ( 'NONE',  ( 0.000000000000000000, 0.000000000000000000, 1.000000000000000000 ) ) ;
#146 = AXIS2_PLACEMENT_3D ( 'NONE', #25, #78, #288 ) ;
#147 = ORIENTED_EDGE ( 'NONE', *, *, #110, .F. ) ;
#148 = DIRECTION ( 'NONE',  ( -1.000000000000000000, 0.000000000000000000, -0.000000000000000000 ) ) ;
#149 = VERTEX_POINT ( 'NONE', #27 ) ;
#150 = DIRECTION ( 'NONE',  ( 0.000000000000000000, 0.000000000000000000, 1.000000000000000000 ) ) ;
#151 = ORIENTED_EDGE ( 'NONE', *, *, #123, .F. ) ;
#152 = DIRECTION ( 'NONE',  ( -0.000000000000000000, 0.000000000000000000, 1.000000000000000000 ) ) ;
#153 = ORIENTED_EDGE ( 'NONE', *, *, #115, .T. ) ;
#154 = CARTESIAN_POINT ( 'NONE',  ( -1.614212418857619014, 7.776507174585692163E-16, -6.349999999999999645 ) ) ;
#155 = PRODUCT ( 'MgF2-MIRQWP-12.7-4500-M', 'MgF2-MIRQWP-12.7-4500-M', '', ( #16 ) ) ;
#156 = CARTESIAN_POINT ( 'NONE',  ( -2.999999999999999556, 7.776507174585692163E-16, -6.349999999999999645 ) ) ;
#157 = APPROVAL_STATUS ( 'not_yet_approved' ) ;
#158 = APPROVAL_PERSON_ORGANIZATION ( #193, #41, #142 ) ;
#159 = CARTESIAN_POINT ( 'NONE',  ( 3.000000000000000888, 0.000000000000000000, 0.000000000000000000 ) ) ;
#160 = DIRECTION ( 'NONE',  ( -1.000000000000000000, -0.000000000000000000, -0.000000000000000000 ) ) ;
#161 = ORIENTED_EDGE ( 'NONE', *, *, #270, .F. ) ;
#162 = DIRECTION ( 'NONE',  ( -1.000000000000000000, -0.000000000000000000, -0.000000000000000000 ) ) ;
#163 = CALENDAR_DATE ( 2020, 23, 12 ) ;
#164 = ADVANCED_FACE ( 'NONE', ( #312, #308 ), #225, .F. ) ;
#165 = AXIS2_PLACEMENT_3D ( 'NONE', #97, #180, #24 ) ;
#166 = PERSON_AND_ORGANIZATION_ROLE ( 'design_supplier' ) ;
#167 = ADVANCED_FACE ( 'NONE', ( #330 ), #98, .F. ) ;
#168 = CC_DESIGN_PERSON_AND_ORGANIZATION_ASSIGNMENT ( #13, #108, ( #14 ) ) ;
#169 = ORIENTED_EDGE ( 'NONE', *, *, #10, .T. ) ;
#170 = CARTESIAN_POINT ( 'NONE',  ( -1.614212418857619014, 0.000000000000000000, 0.000000000000000000 ) ) ;
#171 = ORIENTED_EDGE ( 'NONE', *, *, #123, .T. ) ;
#172 = DIRECTION ( 'NONE',  ( -1.000000000000000000, -0.000000000000000000, -0.000000000000000000 ) ) ;
#173 = EDGE_CURVE ( 'NONE', #29, #43, #127, .T. ) ;
#174 = AXIS2_PLACEMENT_3D ( 'NONE', #159, #293, #269 ) ;
#175 = ORIENTED_EDGE ( 'NONE', *, *, #49, .T. ) ;
#176 = CARTESIAN_POINT ( 'NONE',  ( 3.000000000000000000, 0.000000000000000000, 0.000000000000000000 ) ) ;
#177 = ORIENTED_EDGE ( 'NONE', *, *, #321, .T. ) ;
#178 = DIRECTION ( 'NONE',  ( 0.000000000000000000, 0.000000000000000000, 1.000000000000000000 ) ) ;
#179 = ORIENTED_EDGE ( 'NONE', *, *, #138, .F. ) ;
#180 = DIRECTION ( 'NONE',  ( -1.000000000000000000, -0.000000000000000000, -0.000000000000000000 ) ) ;
#181 = DIRECTION ( 'NONE',  ( 0.000000000000000000, 0.000000000000000000, -1.000000000000000000 ) ) ;
#182 = ORIENTED_EDGE ( 'NONE', *, *, #54, .T. ) ;
#183 = DIRECTION ( 'NONE',  ( -1.000000000000000000, -0.000000000000000000, -0.000000000000000000 ) ) ;
#184 = EDGE_CURVE ( 'NONE', #29, #226, #89, .T. ) ;
#185 = ORIENTED_EDGE ( 'NONE', *, *, #173, .F. ) ;
#186 = DIRECTION ( 'NONE',  ( 0.000000000000000000, 0.000000000000000000, 1.000000000000000000 ) ) ;
#187 = ADVANCED_FACE ( 'NONE', ( #285 ), #229, .T. ) ;
#188 = ORIENTED_EDGE ( 'NONE', *, *, #184, .F. ) ;
#189 = DIRECTION ( 'NONE',  ( 1.000000000000000000, 0.000000000000000000, 0.000000000000000000 ) ) ;
#190 = PERSON ( 'UNSPECIFIED', 'UNSPECIFIED', 'UNSPECIFIED', ('UNSPECIFIED'), ('UNSPECIFIED'), ('UNSPECIFIED') ) ;
#191 = PERSON_AND_ORGANIZATION_ROLE ( 'design_owner' ) ;
#192 = LOCAL_TIME ( 9, 29, 25.00000000000000000, #326 ) ;
#193 = PERSON_AND_ORGANIZATION ( #190, #217 ) ;
#194 = AXIS2_PLACEMENT_3D ( 'NONE', #234, #107, #131 ) ;
#195 = APPROVAL_PERSON_ORGANIZATION ( #290, #299, #35 ) ;
#196 = CYLINDRICAL_SURFACE ( 'NONE', #8, 6.349999999999999645 ) ;
#197 = CARTESIAN_POINT ( 'NONE',  ( -1.500000000000000444, 0.000000000000000000, 0.000000000000000000 ) ) ;
#198 = VERTEX_POINT ( 'NONE', #335 ) ;
#199 = CIRCLE ( 'NONE', #143, 6.349999999999999645 ) ;
#200 = DIRECTION ( 'NONE',  ( -1.000000000000000000, -0.000000000000000000, -0.000000000000000000 ) ) ;
#201 = DIRECTION ( 'NONE',  ( -1.000000000000000000, -0.000000000000000000, -0.000000000000000000 ) ) ;
#202 = ORIENTED_EDGE ( 'NONE', *, *, #110, .T. ) ;
#203 = CARTESIAN_POINT ( 'NONE',  ( -1.614212418857619014, 7.776507174585692163E-16, -6.349999999999999645 ) ) ;
#204 = CARTESIAN_POINT ( 'NONE',  ( -3.000000000000000000, 0.000000000000000000, 12.69999999999999929 ) ) ;
#205 = CARTESIAN_POINT ( 'NONE',  ( -1.614212418857619014, 0.000000000000000000, 12.69999999999999929 ) ) ;
#206 = CARTESIAN_POINT ( 'NONE',  ( 3.000000000000000000, 0.000000000000000000, 0.000000000000000000 ) ) ;
#207 = CARTESIAN_POINT ( 'NONE',  ( 0.000000000000000000, 0.000000000000000000, 0.000000000000000000 ) ) ;
#208 = PRODUCT_RELATED_PRODUCT_CATEGORY ( 'detail', '', ( #155 ) ) ;
#209 = CARTESIAN_POINT ( 'NONE',  ( -1.614212418857619014, 0.000000000000000000, 0.000000000000000000 ) ) ;
#210 = COORDINATED_UNIVERSAL_TIME_OFFSET ( 8, 0, .AHEAD. ) ;
#211 = EDGE_LOOP ( 'NONE', ( #46, #31 ) ) ;
#212 = CARTESIAN_POINT ( 'NONE',  ( 1.500000000000000888, 0.000000000000000000, 6.349999999999999645 ) ) ;
#213 = CARTESIAN_POINT ( 'NONE',  ( -1.614212418857619014, 1.555301434917138433E-15, -12.69999999999999929 ) ) ;
#214 = PERSON_AND_ORGANIZATION ( #190, #217 ) ;
#215 = CALENDAR_DATE ( 2020, 23, 12 ) ;
#216 = CC_DESIGN_SECURITY_CLASSIFICATION ( #242, ( #264 ) ) ;
#217 = ORGANIZATION ( 'UNSPECIFIED', 'UNSPECIFIED', '' ) ;
#218 = PRODUCT_DEFINITION_SHAPE ( 'NONE', 'NONE',  #14 ) ;
#219 = AXIS2_PLACEMENT_3D ( 'NONE', #71, #261, #306 ) ;
#220 = CALENDAR_DATE ( 2020, 23, 12 ) ;
#221 = VECTOR ( 'NONE', #201, 1000.000000000000000 ) ;
#222 = DIRECTION ( 'NONE',  ( 0.000000000000000000, 0.000000000000000000, -1.000000000000000000 ) ) ;
#223 = ADVANCED_FACE ( 'NONE', ( #128 ), #3, .F. ) ;
#224 = CIRCLE ( 'NONE', #194, 6.349999999999999645 ) ;
#225 = PLANE ( 'NONE',  #23 ) ;
#226 = VERTEX_POINT ( 'NONE', #254 ) ;
#227 = FACE_BOUND ( 'NONE', #322, .T. ) ;
#228 = ORIENTED_EDGE ( 'NONE', *, *, #245, .T. ) ;
#229 = CYLINDRICAL_SURFACE ( 'NONE', #73, 12.69999999999999929 ) ;
#230 = EDGE_CURVE ( 'NONE', #61, #311, #250, .T. ) ;
#231 = CARTESIAN_POINT ( 'NONE',  ( -1.614212418857619014, 0.000000000000000000, 0.000000000000000000 ) ) ;
#232 = ORIENTED_EDGE ( 'NONE', *, *, #298, .T. ) ;
#233 = DIRECTION ( 'NONE',  ( -1.000000000000000000, -0.000000000000000000, -0.000000000000000000 ) ) ;
#234 = CARTESIAN_POINT ( 'NONE',  ( -2.999999999999999556, 0.000000000000000000, 0.000000000000000000 ) ) ;
#235 =( NAMED_UNIT ( * ) SI_UNIT ( $, .STERADIAN. ) SOLID_ANGLE_UNIT ( ) );
#236 = AXIS2_PLACEMENT_3D ( 'NONE', #11, #319, #112 ) ;
#237 = EDGE_CURVE ( 'NONE', #149, #198, #94, .T. ) ;
#238 = CIRCLE ( 'NONE', #219, 12.69999999999999929 ) ;
#239 = CARTESIAN_POINT ( 'NONE',  ( -3.000000000000000000, 1.555301434917138433E-15, -12.69999999999999929 ) ) ;
#240 = LINE ( 'NONE', #103, #65 ) ;
#241 = ORIENTED_EDGE ( 'NONE', *, *, #259, .T. ) ;
#242 = SECURITY_CLASSIFICATION ( '', '', #325 ) ;
#243 = ORIENTED_EDGE ( 'NONE', *, *, #22, .T. ) ;
#244 = PERSON_AND_ORGANIZATION ( #190, #217 ) ;
#245 = EDGE_CURVE ( 'NONE', #2, #36, #238, .T. ) ;
#246 = COORDINATED_UNIVERSAL_TIME_OFFSET ( 8, 0, .AHEAD. ) ;
#247 = ADVANCED_FACE ( 'NONE', ( #119 ), #196, .F. ) ;
#248 = EDGE_LOOP ( 'NONE', ( #161, #283 ) ) ;
#249 = FACE_OUTER_BOUND ( 'NONE', #111, .T. ) ;
#250 = CIRCLE ( 'NONE', #7, 12.69999999999999929 ) ;
#251 = CYLINDRICAL_SURFACE ( 'NONE', #287, 6.349999999999999645 ) ;
#252 = ADVANCED_FACE ( 'NONE', ( #249 ), #251, .F. ) ;
#253 = EDGE_LOOP ( 'NONE', ( #130, #256, #202, #177 ) ) ;
#254 = CARTESIAN_POINT ( 'NONE',  ( -1.500000000000000444, 0.000000000000000000, 6.349999999999999645 ) ) ;
#255 = CC_DESIGN_DATE_AND_TIME_ASSIGNMENT ( #276, #87, ( #242 ) ) ;
#256 = ORIENTED_EDGE ( 'NONE', *, *, #68, .F. ) ;
#257 = AXIS2_PLACEMENT_3D ( 'NONE', #206, #162, #300 ) ;
#258 = DIRECTION ( 'NONE',  ( 1.000000000000000000, 0.000000000000000000, 0.000000000000000000 ) ) ;
#259 = EDGE_CURVE ( 'NONE', #226, #5, #240, .T. ) ;
#260 = ORIENTED_EDGE ( 'NONE', *, *, #10, .F. ) ;
#261 = DIRECTION ( 'NONE',  ( -1.000000000000000000, -0.000000000000000000, -0.000000000000000000 ) ) ;
#262 = ORIENTED_EDGE ( 'NONE', *, *, #270, .T. ) ;
#263 = CALENDAR_DATE ( 2020, 23, 12 ) ;
#264 = PRODUCT_DEFINITION_FORMATION_WITH_SPECIFIED_SOURCE ( 'ANY', '', #155, .NOT_KNOWN. ) ;
#265 = CARTESIAN_POINT ( 'NONE',  ( -1.500000000000000444, 0.000000000000000000, 0.000000000000000000 ) ) ;
#266 =( LENGTH_UNIT ( ) NAMED_UNIT ( * ) SI_UNIT ( .MILLI., .METRE. ) );
#267 = CIRCLE ( 'NONE', #174, 6.349999999999999645 ) ;
#268 = EDGE_LOOP ( 'NONE', ( #26, #52, #182, #151 ) ) ;
#269 = DIRECTION ( 'NONE',  ( 0.000000000000000000, 0.000000000000000000, 1.000000000000000000 ) ) ;
#270 = EDGE_CURVE ( 'NONE', #5, #43, #199, .T. ) ;
#271 = FACE_OUTER_BOUND ( 'NONE', #50, .T. ) ;
#272 = CALENDAR_DATE ( 2020, 23, 12 ) ;
#273 = CC_DESIGN_PERSON_AND_ORGANIZATION_ASSIGNMENT ( #244, #67, ( #264 ) ) ;
#274 = VECTOR ( 'NONE', #51, 1000.000000000000000 ) ;
#275 = LINE ( 'NONE', #213, #274 ) ;
#276 = DATE_AND_TIME ( #272, #141 ) ;
#277 = ADVANCED_FACE ( 'NONE', ( #6 ), #62, .T. ) ;
#278 = APPROVAL_PERSON_ORGANIZATION ( #214, #90, #39 ) ;
#279 = ORIENTED_EDGE ( 'NONE', *, *, #68, .T. ) ;
#280 = DIRECTION ( 'NONE',  ( -1.000000000000000000, -0.000000000000000000, -0.000000000000000000 ) ) ;
#281 = CARTESIAN_POINT ( 'NONE',  ( -3.000000000000000000, 6.349999999999999645, 0.000000000000000000 ) ) ;
#282 = CIRCLE ( 'NONE', #120, 12.69999999999999929 ) ;
#283 = ORIENTED_EDGE ( 'NONE', *, *, #49, .F. ) ;
#284 = CARTESIAN_POINT ( 'NONE',  ( 3.000000000000000000, 12.69999999999999929, 0.000000000000000000 ) ) ;
#285 = FACE_OUTER_BOUND ( 'NONE', #82, .T. ) ;
#286 = EDGE_LOOP ( 'NONE', ( #75, #121 ) ) ;
#287 = AXIS2_PLACEMENT_3D ( 'NONE', #96, #172, #150 ) ;
#288 = DIRECTION ( 'NONE',  ( 0.000000000000000000, 0.000000000000000000, 1.000000000000000000 ) ) ;
#289 = CYLINDRICAL_SURFACE ( 'NONE', #81, 6.349999999999999645 ) ;
#290 = PERSON_AND_ORGANIZATION ( #190, #217 ) ;
#291 = DIRECTION ( 'NONE',  ( 0.000000000000000000, 0.000000000000000000, 1.000000000000000000 ) ) ;
#292 = CARTESIAN_POINT ( 'NONE',  ( -1.500000000000000444, 6.349999999999999645, 0.000000000000000000 ) ) ;
#293 = DIRECTION ( 'NONE',  ( -1.000000000000000000, -0.000000000000000000, -0.000000000000000000 ) ) ;
#294 = CARTESIAN_POINT ( 'NONE',  ( 3.000000000000000000, 0.000000000000000000, 12.69999999999999929 ) ) ;
#295 = CIRCLE ( 'NONE', #144, 6.349999999999999645 ) ;
#296 = VERTEX_POINT ( 'NONE', #212 ) ;
#297 = DIRECTION ( 'NONE',  ( 1.000000000000000000, 0.000000000000000000, 0.000000000000000000 ) ) ;
#298 = EDGE_CURVE ( 'NONE', #311, #61, #69, .T. ) ;
#299 = APPROVAL ( #157, 'UNSPECIFIED' ) ;
#300 = DIRECTION ( 'NONE',  ( 0.000000000000000000, 0.000000000000000000, 1.000000000000000000 ) ) ;
#301 = APPROVAL_STATUS ( 'not_yet_approved' ) ;
#302 = SHAPE_DEFINITION_REPRESENTATION ( #218, #93 ) ;
#303 = AXIS2_PLACEMENT_3D ( 'NONE', #292, #297, #37 ) ;
#304 = CIRCLE ( 'NONE', #95, 6.349999999999999645 ) ;
#305 = DIRECTION ( 'NONE',  ( -1.000000000000000000, -0.000000000000000000, -0.000000000000000000 ) ) ;
#306 = DIRECTION ( 'NONE',  ( 0.000000000000000000, 0.000000000000000000, 1.000000000000000000 ) ) ;
#307 = ORIENTED_EDGE ( 'NONE', *, *, #237, .T. ) ;
#308 = FACE_OUTER_BOUND ( 'NONE', #333, .T. ) ;
#309 = EDGE_LOOP ( 'NONE', ( #179, #307, #243, #147 ) ) ;
#310 = CARTESIAN_POINT ( 'NONE',  ( -3.000000000000000000, 0.000000000000000000, 0.000000000000000000 ) ) ;
#311 = VERTEX_POINT ( 'NONE', #294 ) ;
#312 = FACE_BOUND ( 'NONE', #248, .T. ) ;
#313 = CARTESIAN_POINT ( 'NONE',  ( -2.999999999999999556, 0.000000000000000000, 6.349999999999999645 ) ) ;
#314 = APPLICATION_PROTOCOL_DEFINITION ( 'international standard', 'config_control_design', 1994, #91 ) ;
#315 = CIRCLE ( 'NONE', #165, 6.349999999999999645 ) ;
#316 = DATE_AND_TIME ( #263, #328 ) ;
#317 = ORIENTED_EDGE ( 'NONE', *, *, #259, .F. ) ;
#318 = CARTESIAN_POINT ( 'NONE',  ( 1.500000000000000888, 0.000000000000000000, 0.000000000000000000 ) ) ;
#319 = DIRECTION ( 'NONE',  ( -1.000000000000000000, -0.000000000000000000, -0.000000000000000000 ) ) ;
#320 = ADVANCED_FACE ( 'NONE', ( #271 ), #101, .F. ) ;
#321 = EDGE_CURVE ( 'NONE', #296, #198, #295, .T. ) ;
#322 = EDGE_LOOP ( 'NONE', ( #279, #126 ) ) ;
#323 = CARTESIAN_POINT ( 'NONE',  ( 1.500000000000000888, 0.000000000000000000, 0.000000000000000000 ) ) ;
#324 = DATE_TIME_ROLE ( 'creation_date' ) ;
#325 = SECURITY_CLASSIFICATION_LEVEL ( 'unclassified' ) ;
#326 = COORDINATED_UNIVERSAL_TIME_OFFSET ( 8, 0, .AHEAD. ) ;
#327 = AXIS2_PLACEMENT_3D ( 'NONE', #284, #148, #152 ) ;
#328 = LOCAL_TIME ( 9, 29, 25.00000000000000000, #83 ) ;
#329 = CC_DESIGN_DATE_AND_TIME_ASSIGNMENT ( #20, #324, ( #14 ) ) ;
#330 = FACE_OUTER_BOUND ( 'NONE', #211, .T. ) ;
#331 = ORIENTED_EDGE ( 'NONE', *, *, #245, .F. ) ;
#332 = CC_DESIGN_APPROVAL ( #90, ( #264 ) ) ;
#333 = EDGE_LOOP ( 'NONE', ( #228, #171 ) ) ;
#334 = DIRECTION ( 'NONE',  ( -1.000000000000000000, -0.000000000000000000, -0.000000000000000000 ) ) ;
#335 = CARTESIAN_POINT ( 'NONE',  ( 1.500000000000000888, 7.776507174585692163E-16, -6.349999999999999645 ) ) ;
ENDSEC;
END-ISO-10303-21;
